ISO-10303-21;
HEADER;
FILE_DESCRIPTION (( 'STEP AP214' ),
    '1' );
FILE_NAME ('Tilt Spring Holder Glass Side.STEP',
    '2025-06-10T06:36:24',
    ( '' ),
    ( '' ),
    'SwSTEP 2.0',
    'SolidWorks 2021',
    '' );
FILE_SCHEMA (( 'AUTOMOTIVE_DESIGN' ));
ENDSEC;

DATA;
#1 = VERTEX_POINT ( 'NONE', #13 ) ;
#2 = EDGE_CURVE ( 'NONE', #25, #233, #228, .T. ) ;
#3 = DIRECTION ( 'NONE',  ( 1.000000000000000000, 0.000000000000000000, 0.000000000000000000 ) ) ;
#4 = ORIENTED_EDGE ( 'NONE', *, *, #50, .T. ) ;
#5 = CARTESIAN_POINT ( 'NONE',  ( 0.000000000000000000, 0.000000000000000000, 2.000000000000000000 ) ) ;
#6 = CARTESIAN_POINT ( 'NONE',  ( 0.000000000000000000, 0.000000000000000000, 5.999999999999998224 ) ) ;
#7 = CIRCLE ( 'NONE', #262, 11.49999999999999822 ) ;
#8 = SHAPE_DEFINITION_REPRESENTATION ( #240, #260 ) ;
#9 = EDGE_CURVE ( 'NONE', #233, #163, #46, .T. ) ;
#10 = FILL_AREA_STYLE_COLOUR ( '', #176 ) ;
#11 = ADVANCED_FACE ( 'NONE', ( #81 ), #265, .T. ) ;
#12 = CARTESIAN_POINT ( 'NONE',  ( 6.000000000000001776, 7.347880794884121708E-16, 7.000000000000000000 ) ) ;
#13 = CARTESIAN_POINT ( 'NONE',  ( -7.000000000000000000, 0.000000000000000000, 2.000000000000000000 ) ) ;
#14 = CARTESIAN_POINT ( 'NONE',  ( 0.000000000000000000, 0.000000000000000000, 2.000000000000000000 ) ) ;
#15 = ORIENTED_EDGE ( 'NONE', *, *, #29, .F. ) ;
#16 = ORIENTED_EDGE ( 'NONE', *, *, #50, .F. ) ;
#17 = ORIENTED_EDGE ( 'NONE', *, *, #100, .T. ) ;
#18 = AXIS2_PLACEMENT_3D ( 'NONE', #225, #245, #181 ) ;
#19 = DIRECTION ( 'NONE',  ( 0.000000000000000000, 0.000000000000000000, 1.000000000000000000 ) ) ;
#20 = ADVANCED_FACE ( 'NONE', ( #82 ), #134, .T. ) ;
#21 = ORIENTED_EDGE ( 'NONE', *, *, #9, .F. ) ;
#22 = CARTESIAN_POINT ( 'NONE',  ( 0.000000000000000000, 0.000000000000000000, 2.000000000000000000 ) ) ;
#23 = VERTEX_POINT ( 'NONE', #202 ) ;
#24 = CARTESIAN_POINT ( 'NONE',  ( 0.000000000000000000, 0.000000000000000000, 2.000000000000000000 ) ) ;
#25 = VERTEX_POINT ( 'NONE', #114 ) ;
#26 = AXIS2_PLACEMENT_3D ( 'NONE', #254, #230, #237 ) ;
#27 = DIRECTION ( 'NONE',  ( 1.000000000000000000, 0.000000000000000000, 0.000000000000000000 ) ) ;
#28 = AXIS2_PLACEMENT_3D ( 'NONE', #215, #256, #27 ) ;
#29 = EDGE_CURVE ( 'NONE', #266, #1, #244, .T. ) ;
#30 = DIRECTION ( 'NONE',  ( 1.000000000000000000, 0.000000000000000000, 0.000000000000000000 ) ) ;
#31 = CONICAL_SURFACE ( 'NONE', #205, 6.000000000000001776, 0.7853981633974466137 ) ;
#32 =( NAMED_UNIT ( * ) SI_UNIT ( $, .STERADIAN. ) SOLID_ANGLE_UNIT ( ) );
#33 = LINE ( 'NONE', #47, #120 ) ;
#34 = ADVANCED_FACE ( 'NONE', ( #158 ), #89, .T. ) ;
#35 = CARTESIAN_POINT ( 'NONE',  ( -6.000000000000001776, 0.000000000000000000, 7.000000000000000000 ) ) ;
#36 = FILL_AREA_STYLE ('',( #116 ) ) ;
#37 = ORIENTED_EDGE ( 'NONE', *, *, #125, .T. ) ;
#38 = CARTESIAN_POINT ( 'NONE',  ( 0.000000000000000000, 0.000000000000000000, 0.000000000000000000 ) ) ;
#39 = VECTOR ( 'NONE', #55, 1000.000000000000000 ) ;
#40 = ORIENTED_EDGE ( 'NONE', *, *, #113, .F. ) ;
#41 = CARTESIAN_POINT ( 'NONE',  ( 0.000000000000000000, 0.000000000000000000, 2.000000000000000000 ) ) ;
#42 = ORIENTED_EDGE ( 'NONE', *, *, #151, .F. ) ;
#43 = DIRECTION ( 'NONE',  ( 1.000000000000000000, 0.000000000000000000, 0.000000000000000000 ) ) ;
#44 = EDGE_LOOP ( 'NONE', ( #37, #4, #119, #213 ) ) ;
#45 = DIRECTION ( 'NONE',  ( 0.000000000000000000, 0.000000000000000000, 1.000000000000000000 ) ) ;
#46 = CIRCLE ( 'NONE', #152, 7.000000000000000000 ) ;
#47 = CARTESIAN_POINT ( 'NONE',  ( -7.000000000000000000, 0.000000000000000000, 7.000000000000000000 ) ) ;
#48 = PRESENTATION_STYLE_ASSIGNMENT (( #92 ) ) ;
#49 =( LENGTH_UNIT ( ) NAMED_UNIT ( * ) SI_UNIT ( .MILLI., .METRE. ) );
#50 = EDGE_CURVE ( 'NONE', #233, #266, #138, .T. ) ;
#51 = SURFACE_SIDE_STYLE ('',( #241 ) ) ;
#52 = VECTOR ( 'NONE', #127, 1000.000000000000000 ) ;
#53 = PRODUCT_DEFINITION_FORMATION_WITH_SPECIFIED_SOURCE ( 'ANY', '', #184, .NOT_KNOWN. ) ;
#54 =( NAMED_UNIT ( * ) PLANE_ANGLE_UNIT ( ) SI_UNIT ( $, .RADIAN. ) );
#55 = DIRECTION ( 'NONE',  ( -0.000000000000000000, -0.000000000000000000, -1.000000000000000000 ) ) ;
#56 = EDGE_CURVE ( 'NONE', #249, #107, #180, .T. ) ;
#57 = DIRECTION ( 'NONE',  ( -0.000000000000000000, -0.000000000000000000, -1.000000000000000000 ) ) ;
#58 = DIRECTION ( 'NONE',  ( 0.000000000000000000, 0.000000000000000000, 1.000000000000000000 ) ) ;
#59 = AXIS2_PLACEMENT_3D ( 'NONE', #14, #58, #248 ) ;
#60 = PRESENTATION_LAYER_ASSIGNMENT (  '', '', ( #137 ) ) ;
#61 = DIRECTION ( 'NONE',  ( -1.000000000000000000, 0.000000000000000000, 0.000000000000000000 ) ) ;
#62 = VERTEX_POINT ( 'NONE', #35 ) ;
#63 = FACE_OUTER_BOUND ( 'NONE', #231, .T. ) ;
#64 = ORIENTED_EDGE ( 'NONE', *, *, #113, .T. ) ;
#65 = CARTESIAN_POINT ( 'NONE',  ( -6.000000000000001776, 0.000000000000000000, 7.000000000000000000 ) ) ;
#66 = VECTOR ( 'NONE', #171, 1000.000000000000000 ) ;
#67 = EDGE_LOOP ( 'NONE', ( #42, #208, #166, #126 ) ) ;
#68 = LINE ( 'NONE', #65, #52 ) ;
#69 = ORIENTED_EDGE ( 'NONE', *, *, #108, .F. ) ;
#70 = UNCERTAINTY_MEASURE_WITH_UNIT (LENGTH_MEASURE( 1.000000000000000082E-05 ), #49, 'distance_accuracy_value', 'NONE');
#71 = DIRECTION ( 'NONE',  ( 0.000000000000000000, 0.000000000000000000, 1.000000000000000000 ) ) ;
#72 = CARTESIAN_POINT ( 'NONE',  ( 0.000000000000000000, 0.000000000000000000, 7.000000000000000000 ) ) ;
#73 = CLOSED_SHELL ( 'NONE', ( #34, #20, #11, #197, #179, #161, #78, #200, #206 ) ) ;
#74 =( NAMED_UNIT ( * ) PLANE_ANGLE_UNIT ( ) SI_UNIT ( $, .RADIAN. ) );
#75 =( LENGTH_UNIT ( ) NAMED_UNIT ( * ) SI_UNIT ( .MILLI., .METRE. ) );
#76 = CYLINDRICAL_SURFACE ( 'NONE', #173, 7.000000000000000000 ) ;
#77 = AXIS2_PLACEMENT_3D ( 'NONE', #188, #71, #90 ) ;
#78 = ADVANCED_FACE ( 'NONE', ( #177 ), #76, .T. ) ;
#79 = AXIS2_PLACEMENT_3D ( 'NONE', #41, #45, #85 ) ;
#80 = VERTEX_POINT ( 'NONE', #135 ) ;
#81 = FACE_OUTER_BOUND ( 'NONE', #67, .T. ) ;
#82 = FACE_OUTER_BOUND ( 'NONE', #44, .T. ) ;
#83 = COLOUR_RGB ( '',0.7921568627450980005, 0.8196078431372548767, 0.9333333333333333481 ) ;
#84 = ORIENTED_EDGE ( 'NONE', *, *, #235, .F. ) ;
#85 = DIRECTION ( 'NONE',  ( 1.000000000000000000, 0.000000000000000000, -0.000000000000000000 ) ) ;
#86 = DIRECTION ( 'NONE',  ( 0.000000000000000000, 0.000000000000000000, 1.000000000000000000 ) ) ;
#87 = ORIENTED_EDGE ( 'NONE', *, *, #2, .F. ) ;
#88 = DIRECTION ( 'NONE',  ( 0.000000000000000000, 0.000000000000000000, 1.000000000000000000 ) ) ;
#89 = CONICAL_SURFACE ( 'NONE', #18, 6.000000000000001776, 0.7853981633974466137 ) ;
#90 = DIRECTION ( 'NONE',  ( 1.000000000000000000, 0.000000000000000000, 0.000000000000000000 ) ) ;
#91 = DIRECTION ( 'NONE',  ( 0.000000000000000000, 0.000000000000000000, 1.000000000000000000 ) ) ;
#92 = SURFACE_STYLE_USAGE ( .BOTH. , #51 ) ;
#93 = MANIFOLD_SOLID_BREP ( 'Chamfer1', #73 ) ;
#94 = AXIS2_PLACEMENT_3D ( 'NONE', #5, #104, #186 ) ;
#95 =( LENGTH_UNIT ( ) NAMED_UNIT ( * ) SI_UNIT ( .MILLI., .METRE. ) );
#96 = AXIS2_PLACEMENT_3D ( 'NONE', #72, #148, #239 ) ;
#97 = ORIENTED_EDGE ( 'NONE', *, *, #151, .T. ) ;
#98 = CARTESIAN_POINT ( 'NONE',  ( 7.000000000000000000, 8.572527594031473190E-16, 7.000000000000000000 ) ) ;
#99 = DIRECTION ( 'NONE',  ( -0.000000000000000000, -0.000000000000000000, -1.000000000000000000 ) ) ;
#100 = EDGE_CURVE ( 'NONE', #163, #1, #33, .T. ) ;
#101 = CARTESIAN_POINT ( 'NONE',  ( 0.000000000000000000, 0.000000000000000000, 5.999999999999998224 ) ) ;
#102 = EDGE_LOOP ( 'NONE', ( #146, #140 ) ) ;
#103 = UNCERTAINTY_MEASURE_WITH_UNIT (LENGTH_MEASURE( 1.000000000000000082E-05 ), #95, 'distance_accuracy_value', 'NONE');
#104 = DIRECTION ( 'NONE',  ( -0.000000000000000000, -0.000000000000000000, -1.000000000000000000 ) ) ;
#105 = EDGE_LOOP ( 'NONE', ( #84, #269, #139, #189 ) ) ;
#106 = FACE_OUTER_BOUND ( 'NONE', #102, .T. ) ;
#107 = VERTEX_POINT ( 'NONE', #143 ) ;
#108 = EDGE_CURVE ( 'NONE', #23, #107, #196, .T. ) ;
#109 = CARTESIAN_POINT ( 'NONE',  ( 7.000000000000000000, 8.572527594031473190E-16, 5.999999999999998224 ) ) ;
#110 = ORIENTED_EDGE ( 'NONE', *, *, #209, .T. ) ;
#111 = CARTESIAN_POINT ( 'NONE',  ( 11.49999999999999822, 1.408343819019455979E-15, 2.000000000000000000 ) ) ;
#112 = PRODUCT_DEFINITION_CONTEXT ( 'detailed design', #185, 'design' ) ;
#113 = EDGE_CURVE ( 'NONE', #1, #266, #214, .T. ) ;
#114 = CARTESIAN_POINT ( 'NONE',  ( 6.000000000000001776, 7.960204194457797449E-16, 7.000000000000000000 ) ) ;
#115 = DIRECTION ( 'NONE',  ( -0.000000000000000000, -0.000000000000000000, -1.000000000000000000 ) ) ;
#116 = FILL_AREA_STYLE_COLOUR ( '', #83 ) ;
#117 = CARTESIAN_POINT ( 'NONE',  ( 0.000000000000000000, 0.000000000000000000, 7.000000000000000000 ) ) ;
#118 = CARTESIAN_POINT ( 'NONE',  ( 0.000000000000000000, 0.000000000000000000, 2.000000000000000000 ) ) ;
#119 = ORIENTED_EDGE ( 'NONE', *, *, #29, .T. ) ;
#120 = VECTOR ( 'NONE', #130, 1000.000000000000000 ) ;
#121 = FACE_OUTER_BOUND ( 'NONE', #246, .T. ) ;
#122 =( GEOMETRIC_REPRESENTATION_CONTEXT ( 3 ) GLOBAL_UNCERTAINTY_ASSIGNED_CONTEXT ( ( #70 ) ) GLOBAL_UNIT_ASSIGNED_CONTEXT ( ( #49, #74, #172 ) ) REPRESENTATION_CONTEXT ( 'NONE', 'WORKASPACE' ) );
#123 = EDGE_LOOP ( 'NONE', ( #40, #15 ) ) ;
#124 = DIRECTION ( 'NONE',  ( 1.000000000000000000, 0.000000000000000000, -0.000000000000000000 ) ) ;
#125 = EDGE_CURVE ( 'NONE', #163, #233, #136, .T. ) ;
#126 = ORIENTED_EDGE ( 'NONE', *, *, #258, .F. ) ;
#127 = DIRECTION ( 'NONE',  ( -0.7071067811865463515, 0.000000000000000000, -0.7071067811865487940 ) ) ;
#128 = CARTESIAN_POINT ( 'NONE',  ( 0.000000000000000000, 0.000000000000000000, 0.000000000000000000 ) ) ;
#129 = AXIS2_PLACEMENT_3D ( 'NONE', #210, #190, #3 ) ;
#130 = DIRECTION ( 'NONE',  ( -0.000000000000000000, -0.000000000000000000, -1.000000000000000000 ) ) ;
#131 = UNCERTAINTY_MEASURE_WITH_UNIT (LENGTH_MEASURE( 1.000000000000000082E-05 ), #75, 'distance_accuracy_value', 'NONE');
#132 = PRESENTATION_LAYER_ASSIGNMENT (  '', '', ( #247 ) ) ;
#133 =( GEOMETRIC_REPRESENTATION_CONTEXT ( 3 ) GLOBAL_UNCERTAINTY_ASSIGNED_CONTEXT ( ( #103 ) ) GLOBAL_UNIT_ASSIGNED_CONTEXT ( ( #95, #54, #32 ) ) REPRESENTATION_CONTEXT ( 'NONE', 'WORKASPACE' ) );
#134 = CYLINDRICAL_SURFACE ( 'NONE', #201, 7.000000000000000000 ) ;
#135 = CARTESIAN_POINT ( 'NONE',  ( -11.49999999999999822, 0.000000000000000000, 2.000000000000000000 ) ) ;
#136 = CIRCLE ( 'NONE', #175, 7.000000000000000000 ) ;
#137 = STYLED_ITEM ( 'NONE', ( #48 ), #260 ) ;
#138 = LINE ( 'NONE', #98, #167 ) ;
#139 = ORIENTED_EDGE ( 'NONE', *, *, #125, .F. ) ;
#140 = ORIENTED_EDGE ( 'NONE', *, *, #235, .T. ) ;
#141 = CARTESIAN_POINT ( 'NONE',  ( -11.49999999999999822, 0.000000000000000000, 2.000000000000000000 ) ) ;
#142 = CIRCLE ( 'NONE', #28, 6.000000000000001776 ) ;
#143 = CARTESIAN_POINT ( 'NONE',  ( 11.49999999999999822, 1.408343819019455979E-15, 0.000000000000000000 ) ) ;
#144 = ORIENTED_EDGE ( 'NONE', *, *, #267, .F. ) ;
#145 = DIRECTION ( 'NONE',  ( 1.000000000000000000, 0.000000000000000000, 0.000000000000000000 ) ) ;
#146 = ORIENTED_EDGE ( 'NONE', *, *, #267, .T. ) ;
#147 = PLANE ( 'NONE',  #79 ) ;
#148 = DIRECTION ( 'NONE',  ( 0.000000000000000000, 0.000000000000000000, 1.000000000000000000 ) ) ;
#149 = EDGE_CURVE ( 'NONE', #107, #23, #160, .T. ) ;
#150 = PRODUCT_RELATED_PRODUCT_CATEGORY ( 'part', '', ( #184 ) ) ;
#151 = EDGE_CURVE ( 'NONE', #249, #80, #226, .T. ) ;
#152 = AXIS2_PLACEMENT_3D ( 'NONE', #101, #263, #199 ) ;
#153 = PRESENTATION_STYLE_ASSIGNMENT (( #257 ) ) ;
#154 =( GEOMETRIC_REPRESENTATION_CONTEXT ( 3 ) GLOBAL_UNCERTAINTY_ASSIGNED_CONTEXT ( ( #131 ) ) GLOBAL_UNIT_ASSIGNED_CONTEXT ( ( #75, #242, #220 ) ) REPRESENTATION_CONTEXT ( 'NONE', 'WORKASPACE' ) );
#155 = DIRECTION ( 'NONE',  ( 0.000000000000000000, 0.000000000000000000, 1.000000000000000000 ) ) ;
#156 = APPLICATION_CONTEXT ( 'automotive_design' ) ;
#157 = VECTOR ( 'NONE', #178, 1000.000000000000000 ) ;
#158 = FACE_OUTER_BOUND ( 'NONE', #105, .T. ) ;
#159 = DIRECTION ( 'NONE',  ( -1.000000000000000000, 0.000000000000000000, 0.000000000000000000 ) ) ;
#160 = CIRCLE ( 'NONE', #238, 11.49999999999999822 ) ;
#161 = ADVANCED_FACE ( 'NONE', ( #121 ), #252, .F. ) ;
#162 = DIRECTION ( 'NONE',  ( -1.000000000000000000, 0.000000000000000000, 0.000000000000000000 ) ) ;
#163 = VERTEX_POINT ( 'NONE', #250 ) ;
#164 = ORIENTED_EDGE ( 'NONE', *, *, #149, .F. ) ;
#165 = CARTESIAN_POINT ( 'NONE',  ( 7.000000000000000000, 8.572527594031473190E-16, 2.000000000000000000 ) ) ;
#166 = ORIENTED_EDGE ( 'NONE', *, *, #149, .T. ) ;
#167 = VECTOR ( 'NONE', #57, 1000.000000000000000 ) ;
#168 = FACE_OUTER_BOUND ( 'NONE', #236, .T. ) ;
#169 = EDGE_LOOP ( 'NONE', ( #87, #144, #110, #21 ) ) ;
#170 = DIRECTION ( 'NONE',  ( 1.000000000000000000, 0.000000000000000000, 0.000000000000000000 ) ) ;
#171 = DIRECTION ( 'NONE',  ( -0.000000000000000000, -0.000000000000000000, -1.000000000000000000 ) ) ;
#172 =( NAMED_UNIT ( * ) SI_UNIT ( $, .STERADIAN. ) SOLID_ANGLE_UNIT ( ) );
#173 = AXIS2_PLACEMENT_3D ( 'NONE', #117, #99, #61 ) ;
#174 = PRODUCT_DEFINITION ( 'UNKNOWN', '', #53, #112 ) ;
#175 = AXIS2_PLACEMENT_3D ( 'NONE', #6, #183, #43 ) ;
#176 = COLOUR_RGB ( '',0.7921568627450980005, 0.8196078431372548767, 0.9333333333333333481 ) ;
#177 = FACE_OUTER_BOUND ( 'NONE', #204, .T. ) ;
#178 = DIRECTION ( 'NONE',  ( 0.7071067811865463515, 8.659560562354919300E-17, -0.7071067811865487940 ) ) ;
#179 = ADVANCED_FACE ( 'NONE', ( #255, #168 ), #147, .T. ) ;
#180 = LINE ( 'NONE', #227, #39 ) ;
#181 = DIRECTION ( 'NONE',  ( -1.000000000000000000, 0.000000000000000000, 0.000000000000000000 ) ) ;
#182 = AXIS2_PLACEMENT_3D ( 'NONE', #118, #115, #159 ) ;
#183 = DIRECTION ( 'NONE',  ( 0.000000000000000000, 0.000000000000000000, -1.000000000000000000 ) ) ;
#184 = PRODUCT ( 'Tilt Spring Holder Glass Side', 'Tilt Spring Holder Glass Side', '', ( #218 ) ) ;
#185 = APPLICATION_CONTEXT ( 'automotive_design' ) ;
#186 = DIRECTION ( 'NONE',  ( -1.000000000000000000, 0.000000000000000000, 0.000000000000000000 ) ) ;
#187 = ORIENTED_EDGE ( 'NONE', *, *, #108, .T. ) ;
#188 = CARTESIAN_POINT ( 'NONE',  ( 0.000000000000000000, 0.000000000000000000, 0.000000000000000000 ) ) ;
#189 = ORIENTED_EDGE ( 'NONE', *, *, #209, .F. ) ;
#190 = DIRECTION ( 'NONE',  ( 0.000000000000000000, 0.000000000000000000, 1.000000000000000000 ) ) ;
#191 = LINE ( 'NONE', #141, #66 ) ;
#192 = FILL_AREA_STYLE ('',( #10 ) ) ;
#193 = APPLICATION_PROTOCOL_DEFINITION ( 'draft international standard', 'automotive_design', 1998, #156 ) ;
#194 = MECHANICAL_DESIGN_GEOMETRIC_PRESENTATION_REPRESENTATION (  '', ( #137 ), #154 ) ;
#195 = APPLICATION_PROTOCOL_DEFINITION ( 'draft international standard', 'automotive_design', 1998, #185 ) ;
#196 = CIRCLE ( 'NONE', #77, 11.49999999999999822 ) ;
#197 = ADVANCED_FACE ( 'NONE', ( #63 ), #207, .T. ) ;
#198 = ORIENTED_EDGE ( 'NONE', *, *, #56, .F. ) ;
#199 = DIRECTION ( 'NONE',  ( 1.000000000000000000, 0.000000000000000000, 0.000000000000000000 ) ) ;
#200 = ADVANCED_FACE ( 'NONE', ( #106 ), #270, .T. ) ;
#201 = AXIS2_PLACEMENT_3D ( 'NONE', #264, #261, #162 ) ;
#202 = CARTESIAN_POINT ( 'NONE',  ( -11.49999999999999822, 0.000000000000000000, 0.000000000000000000 ) ) ;
#203 = SURFACE_STYLE_FILL_AREA ( #36 ) ;
#204 = EDGE_LOOP ( 'NONE', ( #16, #211, #17, #64 ) ) ;
#205 = AXIS2_PLACEMENT_3D ( 'NONE', #268, #234, #212 ) ;
#206 = ADVANCED_FACE ( 'NONE', ( #217 ), #31, .T. ) ;
#207 = CYLINDRICAL_SURFACE ( 'NONE', #94, 11.49999999999999822 ) ;
#208 = ORIENTED_EDGE ( 'NONE', *, *, #56, .T. ) ;
#209 = EDGE_CURVE ( 'NONE', #62, #163, #68, .T. ) ;
#210 = CARTESIAN_POINT ( 'NONE',  ( 0.000000000000000000, 0.000000000000000000, 2.000000000000000000 ) ) ;
#211 = ORIENTED_EDGE ( 'NONE', *, *, #9, .T. ) ;
#212 = DIRECTION ( 'NONE',  ( -1.000000000000000000, 0.000000000000000000, 0.000000000000000000 ) ) ;
#213 = ORIENTED_EDGE ( 'NONE', *, *, #100, .F. ) ;
#214 = CIRCLE ( 'NONE', #129, 7.000000000000000000 ) ;
#215 = CARTESIAN_POINT ( 'NONE',  ( 0.000000000000000000, 0.000000000000000000, 7.000000000000000000 ) ) ;
#216 = AXIS2_PLACEMENT_3D ( 'NONE', #221, #155, #30 ) ;
#217 = FACE_OUTER_BOUND ( 'NONE', #169, .T. ) ;
#218 = PRODUCT_CONTEXT ( 'NONE', #156, 'mechanical' ) ;
#219 = CIRCLE ( 'NONE', #96, 6.000000000000001776 ) ;
#220 =( NAMED_UNIT ( * ) SI_UNIT ( $, .STERADIAN. ) SOLID_ANGLE_UNIT ( ) );
#221 = CARTESIAN_POINT ( 'NONE',  ( 0.000000000000000000, 0.000000000000000000, 0.000000000000000000 ) ) ;
#222 = EDGE_CURVE ( 'NONE', #80, #249, #7, .T. ) ;
#223 = AXIS2_PLACEMENT_3D ( 'NONE', #128, #91, #124 ) ;
#224 = SURFACE_SIDE_STYLE ('',( #203 ) ) ;
#225 = CARTESIAN_POINT ( 'NONE',  ( 0.000000000000000000, 0.000000000000000000, 7.000000000000000000 ) ) ;
#226 = CIRCLE ( 'NONE', #259, 11.49999999999999822 ) ;
#227 = CARTESIAN_POINT ( 'NONE',  ( 11.49999999999999822, 1.408343819019455979E-15, 2.000000000000000000 ) ) ;
#228 = LINE ( 'NONE', #12, #157 ) ;
#229 = ORIENTED_EDGE ( 'NONE', *, *, #222, .F. ) ;
#230 = DIRECTION ( 'NONE',  ( 0.000000000000000000, 0.000000000000000000, 1.000000000000000000 ) ) ;
#231 = EDGE_LOOP ( 'NONE', ( #198, #229, #253, #187 ) ) ;
#232 = DIRECTION ( 'NONE',  ( 1.000000000000000000, 0.000000000000000000, 0.000000000000000000 ) ) ;
#233 = VERTEX_POINT ( 'NONE', #109 ) ;
#234 = DIRECTION ( 'NONE',  ( 0.000000000000000000, 0.000000000000000000, -1.000000000000000000 ) ) ;
#235 = EDGE_CURVE ( 'NONE', #25, #62, #142, .T. ) ;
#236 = EDGE_LOOP ( 'NONE', ( #251, #97 ) ) ;
#237 = DIRECTION ( 'NONE',  ( 1.000000000000000000, 0.000000000000000000, -0.000000000000000000 ) ) ;
#238 = AXIS2_PLACEMENT_3D ( 'NONE', #38, #19, #170 ) ;
#239 = DIRECTION ( 'NONE',  ( 1.000000000000000000, 0.000000000000000000, 0.000000000000000000 ) ) ;
#240 = PRODUCT_DEFINITION_SHAPE ( 'NONE', 'NONE',  #174 ) ;
#241 = SURFACE_STYLE_FILL_AREA ( #192 ) ;
#242 =( NAMED_UNIT ( * ) PLANE_ANGLE_UNIT ( ) SI_UNIT ( $, .RADIAN. ) );
#243 = MECHANICAL_DESIGN_GEOMETRIC_PRESENTATION_REPRESENTATION (  '', ( #247 ), #133 ) ;
#244 = CIRCLE ( 'NONE', #59, 7.000000000000000000 ) ;
#245 = DIRECTION ( 'NONE',  ( 0.000000000000000000, 0.000000000000000000, -1.000000000000000000 ) ) ;
#246 = EDGE_LOOP ( 'NONE', ( #69, #164 ) ) ;
#247 = STYLED_ITEM ( 'NONE', ( #153 ), #93 ) ;
#248 = DIRECTION ( 'NONE',  ( 1.000000000000000000, 0.000000000000000000, 0.000000000000000000 ) ) ;
#249 = VERTEX_POINT ( 'NONE', #111 ) ;
#250 = CARTESIAN_POINT ( 'NONE',  ( -7.000000000000000000, 0.000000000000000000, 5.999999999999998224 ) ) ;
#251 = ORIENTED_EDGE ( 'NONE', *, *, #222, .T. ) ;
#252 = PLANE ( 'NONE',  #223 ) ;
#253 = ORIENTED_EDGE ( 'NONE', *, *, #258, .T. ) ;
#254 = CARTESIAN_POINT ( 'NONE',  ( 0.000000000000000000, 0.000000000000000000, 7.000000000000000000 ) ) ;
#255 = FACE_BOUND ( 'NONE', #123, .T. ) ;
#256 = DIRECTION ( 'NONE',  ( 0.000000000000000000, 0.000000000000000000, 1.000000000000000000 ) ) ;
#257 = SURFACE_STYLE_USAGE ( .BOTH. , #224 ) ;
#258 = EDGE_CURVE ( 'NONE', #80, #23, #191, .T. ) ;
#259 = AXIS2_PLACEMENT_3D ( 'NONE', #22, #88, #145 ) ;
#260 = ADVANCED_BREP_SHAPE_REPRESENTATION ( 'Tilt Spring Holder Glass Side', ( #93, #216 ), #122 ) ;
#261 = DIRECTION ( 'NONE',  ( -0.000000000000000000, -0.000000000000000000, -1.000000000000000000 ) ) ;
#262 = AXIS2_PLACEMENT_3D ( 'NONE', #24, #86, #232 ) ;
#263 = DIRECTION ( 'NONE',  ( 0.000000000000000000, 0.000000000000000000, -1.000000000000000000 ) ) ;
#264 = CARTESIAN_POINT ( 'NONE',  ( 0.000000000000000000, 0.000000000000000000, 7.000000000000000000 ) ) ;
#265 = CYLINDRICAL_SURFACE ( 'NONE', #182, 11.49999999999999822 ) ;
#266 = VERTEX_POINT ( 'NONE', #165 ) ;
#267 = EDGE_CURVE ( 'NONE', #62, #25, #219, .T. ) ;
#268 = CARTESIAN_POINT ( 'NONE',  ( 0.000000000000000000, 0.000000000000000000, 7.000000000000000000 ) ) ;
#269 = ORIENTED_EDGE ( 'NONE', *, *, #2, .T. ) ;
#270 = PLANE ( 'NONE',  #26 ) ;
ENDSEC;
END-ISO-10303-21;
